Chordie logo

Bird On A Wire     Leonard Cohen



5 Cent Deposit - Bird On A Wire

Tabbed by: romeoiswhorish


Tuning: standard

intro/verse x 2
-verse however, is NOT palm muted.
e|---------------------------------------------------------------------------|
B|---------------------------------------------------------------------------|
G|---------------7--77777777--------------------9999-------------------------|
D|-7--77777777---7--77777777-----7---77777777---9999---7777------------------|
A|-7--77777777---5--55555555-----7---77777777---7777---5555------------------|
E|-5--55555555-------------------5---55555555--------------------------------|
      ........      ........         ........
intro continued...
e|---------------------------------------------------------------------------|
B|---------------------------------------------------------------------------|
G|-------9----777777777777---------------------------------------------------|
D|-7-----9----777777777777---------------------------------------------------|
A|-7 x8--7----555555555555---------------------------------------------------|
E|-5-------------------------------------------------------------------------|


chorus x2 (i think?)
e|--------------------------------------------------------------------------|
B|--------------------------------------------------------------------------|
G|-11------9------7------9------------9-------------------------------------|
D|-11--x16-9------7-x16--9---7--------9--x16--------------------------------|
A|-9-------7------5------7---7--x16---7-------------------------------------|
E|---------------------------5----------------------------------------------|

on last time of chorus (time 2) they do a little slide thing between these 2 chords
e|---------------------------------------------------------------------------|
B|---------------------------------------------------------------------------|
G|-77----99------------------------------------------------------------------|
D|-77-//-99--x4--------------------------------------------------------------|
A|-55----77------------------------------------------------------------------|
E|---------------------------------------------------------------------------|

verse 2x
chorus 2x
verse/outro (same riff just played a few times until the end)

that's it! short & sweet. good beginners tab. hopefully this is better than my first tab. thanks!

| /  slide up
| \  slide down
| h  hammer-on
| p  pull-off
| ~  vibrato
| +  harmonic
| x  Mute note


Important: The song above is NOT stored on the Chordie server. The original song is hosted at www.guitaretab.com. Chordie works as a search engine and provides on-the-fly formatting. Chordie does not index songs against artists/composers will. To remove this song please click here.

This song is displayed as text-only. Transposing and tuning is only available for chordpro-songs.

Rating click stars to rate

Layout
Accuracy

SHARE PAGE  



You need to log in to post comments