Chordie logo

Dracula's Castle    New Order



Artist: New Order
Song: Dracula's Castle
Album: Waiting for the Sirens' Call

www.crimsonknight.net

Intro (Piano)

0-0:13 seconds
e|------------------------------------------------------|
B|-------10--------------8-------------6----------------|
G|-----9--------------7-------------5-------------------|
D|--10-------------8-------------6-------------4----0---|
A|------------------------------------------------------|
E|------------------------------------------------------|


Gtr1
0:13-0:27 seconds
e|-------------------------------|
B|-------------------------------|
G|---------9------------9--------|    x8
D|------9-----9------9-----9-----|
A|-------------------------------|
E|--0----------------------------|
Play Open E once but repeat the others


Gtr2
0:13-0:27 seconds   (whenever this tab is played it is followed with Gtr 1's tab from above)
e|--------------------------------------------------------------------|
B|--------------------------------------------------------------------|
G|--------------------------------------------------------------------|
D|--------------------------------------------------------------------|   x2
A|--7-7--7-7-7--7-7-7--7-7-7--7-9-9--9-9-9--9-10-10--10-10-9-9-7------|
E|--------------------------------------------------------------------|

Gtr1
0:27-1:25 (Lyrics start at 0:42)
What's the matter here?
Something ain't right
Tell me it's not true
tell me it's all right
there was time i'd run around for you
get down on my knees
i swear it's true
but you came in the night,
and you took my heart
to Dracula's Castle
in the Dark
Now I've gotta tell you
Now you've gotta know
I want you to stay
But you're gonna go
Don't leave me alone
you'll tear me apart
you're in control
e|------------------------------------------------------|
B|------------------------------------------------------|
G|------------------------------------------------------|
D|-------7--7-7----9--9-9----5--------------------------| x8
A|--7-----------------------------9--9-9-----5--5-5-----|
E|------------------------------------------------------|


Chorus
1:25-1:53
so goodbye love you were not real
you came to stay
but now you leave
i can't explain
the way you feel
we once stood high
but now we kneel
e|------------------------------------------------------|
B|-------12---------------12----------------------------|
G|--9--------11-12--9---------11-12--9--12-12-12-11-9---|
D|------------------------------------------------------|  x4
A|------------------------------------------------------|
E|------------------------------------------------------|

(Little Techno interlude thing 1:53-2:00)

2:01-2:25
you can't keep on running
how far'd you think you'll get
you got the world if you want it
i ain't done with you yet
i work hard just to keep you by my side
every day and almost every night
in the end you took away my heart
left me alone
e|------------------------------------------------------|
B|------------------------------------------------------|
G|------------------------------------------------------|
D|-------7--7-7----9--9-9----5--------------------------| x4
A|--7-----------------------------9--9-9-----5--5-5-----|
E|------------------------------------------------------|

Chorus
2:26-2:56
so goodbye love you were not real
you came to stay
but now you leave
i can't explain
the way you feel
we once stood high
but now we kneel

e|------------------------------------------------------|
B|-------12---------------12----------------------------|
G|--9--------11-12--9---------11-12--9--12-12-12-11-9---|
D|------------------------------------------------------|  x4
A|------------------------------------------------------|
E|------------------------------------------------------|

Another Techno Interlude
2:56-3:50
2:24-3:50 Play same intro from Piano 2 times

e|------------------------------------------------------|
B|-------10--------------8-------------6----------------|
G|-----9--------------7-------------5-------------------|
D|--10-------------8-------------6-------------4----0---|
A|------------------------------------------------------|
E|------------------------------------------------------|


Chorus
3:51-4:20
Then It goes back to Chorus 2 more times

so goodbye love you were not real
you came to stay
but now you leave
i can't explain
the way you feel
we once stood high
but now we kneel
e|------------------------------------------------------|
B|-------12---------------12----------------------------|
G|--9--------11-12--9---------11-12--9--12-12-12-11-9---|
D|------------------------------------------------------|  x4
A|------------------------------------------------------|
E|------------------------------------------------------|


and Flutes so theres not much to tab.




Important: The song above is NOT stored on the Chordie server. The original song is hosted at www.xguitar.com. Chordie works as a search engine and provides on-the-fly formatting. Chordie does not index songs against artists/composers will. To remove this song please click here.

This song is displayed as text-only. Transposing and tuning is only available for chordpro-songs.

Login - add to songbook

Rating click stars to rate

Layout
Accuracy

SHARE PAGE  

You need to log in to post comments