Chordie logo

Wake Me Up When September Ends   Green Day



Tab for "Wake Me Up When September Ends" by Green Day (Off of "American Idiot")
By Patriko 

Tuning: Standard EADGBE

  Key
  --------------------------------
   ~ : Ride the note
   / : Slide between the two notes

And remember, anytime you see two sections of tab touching via two pipes ("|"s),
that means that more than one guitar is playing.  Play the bottom of the grouped
tabs on top of the upper one.

|-------------------------------------------------------------------------------|
| Intro (Repeat 4x)                                                             |
|-------------------------------------------------------------------------------|
|
|  |---------------|
|  |------3-----3--|
|  |----0-----0----|
|  |--5-----5------|
|  |---------------|
|  |---------------|
|

|-------------------------------------------------------------------------------|
| Verse 1                                                                       |
|-------------------------------------------------------------------------------|
|
|  |------------------------------------------------------------------|
|  |------3-----3----------3-----3----------3-----3----------3-----3--|
|  |----0-----0----------0-----0----------0-----0----------0-----0----|
|  |--5-----5----------4-----4----------2-----2----------0-----0------|
|  |------------------------------------------------------------------|
|  |------------------------------------------------------------------|
|
|  |-------------------------------------|
|  |------5-----5----------4-----4-------|
|  |----5-5-5---5----5---5-5-5---5----5--|
|  |-------------------------------------|
|  |--3-------3--------3-------3---------|
|  |-------------------------------------|
|
|  |-----------------------------------|
|  |------3-----3----------3-----3-----|
|  |----0-0-0---0----0---0-0-0---0--0--|
|  |--5-------5--------5-------5-------|
|  |-----------------------------------|
|  |-----------------------------------|
|
|  |------------------------------------------------------------------|
|  |------3-----3----------3-----3----------3-----3----------3-----3--|
|  |----0-----0----------0-----0----------0-----0----------0-----0----|
|  |--5-----5----------4-----4----------2-----2----------0-----0------|
|  |------------------------------------------------------------------|
|  |------------------------------------------------------------------|
|
|  |-------------------------------------|
|  |------5-----5----------4-----4-------|
|  |----5-5-5---5----5---5-5-5---5----5--|
|  |-------------------------------------|
|  |--3-------3--------3-------3---------|
|  |-------------------------------------|
|
|  |------------------------------------|
|  |------3-----3----------3-------3-0--|
|  |----0-0-0---0----0---0-0-0---0-0----|
|  |--5-------5--------5-------4--------|
|  |------------------------------------|
|  |------------------------------------|
|


|-------------------------------------------------------------------------------|
| Chorus 1                                                                      |
|-------------------------------------------------------------------------------|
|
|  |----------------------------------------------------------------------|
|  |------3-----3----------3-----3----------5-----5----------3-------3-0--|
|  |----0-0-0---0----0---0-0-0---0----0---0-0-0---0----0---0-0-0---0-0----|
|  |--2-------2-----------------------------------------------------------|
|  |-------------------2-------2--------3-------3-------------------------|
|  |-----------------------------------------------------3-------2--------|
|
|  |----------------------------------------0-----0----------2-----2------|
|  |------0-----0----------3-----3----------0-----0----------3-----3------|
|  |----0-0-0---0----0---0-0-0---0----0---0-0-0---0----0---0-0-0---0---0--|
|  |--2-------2------------------------------------------0-------0--------|
|  |-------------------2-------2--------3-------3-------------------------|
|  |----------------------------------------------------------------------|
|

|-------------------------------------------------------------------------------|
| Verse 2                                                                       |
|-------------------------------------------------------------------------------|
|
|  |------------------------------------------------------------------|
|  |------3-----3----------3-----3----------3-----3----------3-----3--|
|  |----0-----0----------0-----0----------0-----0----------0-----0----|
|  |--5-----5----------4-----4----------2-----2----------0-----0------|
|  |------------------------------------------------------------------|
|  |------------------------------------------------------------------|
|
|  |-------------------------------------|
|  |------5-----5----------4-----4-------|
|  |----5-5-5---5----5---5-5-5---5----5--|
|  |-------------------------------------|
|  |--3-------3--------3-------3---------|
|  |-------------------------------------|
|
|  |-----------------------------------|
|  |------3-----3----------3-----3-----|
|  |----0-0-0---0----0---0-0-0---0--0--|
|  |--5-------5--------5-------5-------|
|  |-----------------------------------|
|  |-----------------------------------|

|-------------------------------------------------------------------------------|
| Interlude 1                                                                   |
|-------------------------------------------------------------------------------|
|
|  |------------------------------------------------------------------|
|  |------3-----3----------3-----3----------3-----3----------3-----3--|
|  |----0-----0----------0-----0----------0-----0----------0-----0----|
|  |--5-----5----------5-----5----------5-----5----------5-----5------|
|  |------------------------------------------------------------------|
|  |------------------------------------------------------------------|
|
|  |----------------------------------|
|  |------3-----3----------3-----3----|
|  |----0-----0----------0-----0------|
|  |--5-----5----------5-----5--------|
|  |----------------------------------|
|  |----------------------------------|
|  |                                  |
|  |-------------------------------3--|
|  |------3-----3----------3-----3----|
|  |----0-----0----------0-----0------|  

Important: The song above is NOT stored on the Chordie server. The original song is hosted at www.xguitar.com. Chordie works as a search engine and provides on-the-fly formatting. Chordie does not index songs against artists/composers will. To remove this song please click here.

This song is displayed as text-only. Transposing and tuning is only available for chordpro-songs.

Login - add to songbook

Rating click stars to rate

Layout
Accuracy

SHARE PAGE  



You need to log in to post comments

Elleas (report)

Good job! Just that their version of first two reads of the verse 1 is:
|
| |------------------------------------------------------------------|
| |------3-----3----------3-----3----------3-----3----------3-----3--|
| |----0-----0----------0-----0----------0-----0----------0-----0----|
| |--5-----5----------4-----4----------2-----2----------0-----0------|
| |------------------------------------------------------------------|
| |------------------------------------------------------------------|
|
| |---------------------------------------------------------------------|
| |------5-----5----------4-----4----------3-----3---------3-----3------|
| |----5-5-5---5---5----5-5-5---5---5------0-0---0---0-----0-0---0---0--|
| |--------------------------------------0---------------0--------------|
| |--3-------3--------3-------3-----------------------------------------|
| |------------------------------------3-------3-------3-------3--------|

sgcpe (report)

why couldnt you add it to your songbook? i added it to mine.

Wolf_Lover94 (report)

This is GREAT! I could play it as soon as i looked at it!

coomcman2 (report)

I found nothing wrong with the song... I played it just by looking at it. Two thumbs up. I wish i could add it to my songbook though.

hothoops4@hotmail.com (report)

in distorted guitar he means elctric but otherwise it is perfect