Chordie logo

Stand Here With Me   Creed



Author/Artist: Creed
Title: Stand Here With Me
Album: Weathered
Tuning: Drop D (D A D G B E low to high)
Transcribed by: Adam Strachn
Email: CookieMonster912@hotmail.com
Submitted By: IcEmAn

I have the complete solo!
It was hard to transcribe from standard tuning . . .

Intro – (clean tone)
-------------------------------------|-------------------------------------|
-------------------------------------|----------------------------------0--|
----6h7-----7/9-----9p7—-9/11-12--0--|-----9-----11-----11/12--12--11---0--|
-------------------------------------|--0-----0------0------------------0--|
-0-------0-------0-------------------|-------------------------------------|
-------------------------------------|-------------------------------------|
                                                                              
-----------------------------|----------------------------|
--------------------------0--|----------------------------|
----4--4/6--6--6/7--7-7---0--|-----4--4/6--6--6/7--7-7/9--|
--------------------------0--|----------------------------|
-----------------------------|----------------------------|
-0---------------------------|--0-------------------------|
                                                                           
Distortion kicks in – (full bend on the 12th fret)
--------------------------------|-----------------------------|
--------------------------------|-----------------------------|
----6h7----7/9---9p7—-9/11--12--|-----9----10---14b--12-11-7--|
-0------------------------------|--0--------------------------|
-0------------------------------|--0--------------------------|
--------------------------------|-----------------------------|
                                                                              
------------------------------|----------------------------|
---------------------------0--|----------------------------|
----4--4/6--6--6/7--7/9\7--0--|-----4--4/6--6--6/7--7-7/9--|
-0-------------------------0--|--0-------------------------|
-0----------------------------|--0-------------------------|
-0----------------------------|--0-------------------------|
Verse – (play with minor variations)
--------------------------------|-----------------------------|
--------------------------------|-----------------------------|
----6h7----7/9---9p7—-9/11--12--|-----9----10---14b--12-11-7--|
-0------------------------------|--0--------------------------|
-0------------------------------|--0--------------------------|
--------------------------------|-----------------------------|
                                                                              
---------------------------0--|----------------------------|
---------------------------0--|----------------------------|
----4--4/6--6--6/7--7/9\7--0--|-----4--4/6--6--6/7--7-7/9--|
-0----------------------------|--0-------------------------|
-0----------------------------|--0-------------------------|
-0----------------------------|--0-------------------------|
Chorus – 
“Cause You stand here with me . . .”
-------------------------------------|
-------------------------------------|
-------------------------------------|
-0~----------------------------------|
-0~----------------------------------|
-0~----------------------------------|
 *

“Nooooooooooooo~~~~~~~~~~oooooooooooooooooooww~~~~~~”
-------------------------------------------------------|
-------------------------------------------------------|
-5-5-5-5-5-5-5-5-5-5-5--3-3-3-3-3-3-3-3-3-3-3-3-3-3-3--|
-5-5-5-5-5-5-5-5-5-5-5--3-3-3-3-3-3-3-3-3-3-3-3-3-3-3--|
-3-3-3-3-3-3-3-3-3-3-3--1-1-1-1-1-1-1-1-1-1-1-1-1-1-1--|
-------------------------------------------------------|                                                                       

Play right after “noo~~~w” -
------------------------------|
------------------------------|
------------------------------| This part is not exact
-0-0-3-0---------------0-3-0--| 
-0-0-3-0--3-3-3-3-5-3--0-3-0--|
-0-0-3-0---------------0-3-0--|

Then go into the verse

Then the chorus
                    
Solo – (play with whammy/vibrato bar)
------------------------------------------------------|
------------------------------------------------------|  
-------9b-7v--7-7-10-7v--------7-10-7h10p7-5-7-5-2----|
-12\/--------------------10\/----------------------5--|
-12\/--------------------10\/-------------------------|
-12\/--------------------10\/-------------------------|

-------------------14b-15b-13v~--13-10-12----10--------------|
---------------------------------/\/\//\\-13----13b-13brbv~--|
-------------------------------------------------------------|
-5-4-5-4-5-4-------------------------------------------------|
--------------5----------------------------------------------|
--------------0----------------------------------------------|

---------------------------------------------------------------------|
---------------------------------------------------------------------|
-9-10-12-10p9h10----9-------------------10----------------10/--------|
-----------------12---10-12^p.h.--10-12----12-10-12^p.h.-------------|
---------------------------------------------------------------------|
----------------------------------------------------------------0/\--|

                      
-14-12-14------|--14-12-14-15--|--14-12-14-15-14-12-14------|
----------15~--|---------------|-----------------------15~--|
---------------|---------------|----------------------------|
---------------|---------------|----------------------------|
---------------|---------------|----------------------------|
---------------|---------------|----------------------------|


-14-12-14-15--|--14-12-14-15-14-12-14------|
--------------|-----------------------15~--|
--------------|----------------------------|
--------------|----------------------------|
--------------|----------------------------|
--------------|----------------------------|

-14-12-14-15-14-12-14-15-14-12-12--|                                                                              
-----------------------------------|
-----------------------------------|
-----------------------------------|
-----------------------------------|
-----------------------------------|

-17p14----14h17p14----14h17p14----14h17p14----14h19p14----14h17p14-----|
-------15----------15----------15----------15----------15----------15--|
-----------------------------------------------------------------------|
-----------------------------------------------------------------------|
-----------------------------------------------------------------------|
-----------------------------------------------------------------------|
 
-14h19p14----14h17p14-----18b-18b-18b--17/\~--| 
----------15----------15----------------------| 17/\ = more of a vibrato than a
----------------------------------------------|        deep whammy bend
----------------------------------------------|
----------------------------------------------|
----------------------------------------------|
        
                                                  
Bridge/Outro – “On and on we sing . . .”
--------------------------------|
--------------------------------|
-/7-----9-----14-----12-----11--|
--------------------------------|
-/5-----7-----12-----10------9--|
--------------------------------|

Mark also plays the verse riffs in the bridge/outro
Tab Key –
b = full bend
p = pull off
^p.h. = pinch harmonic
/ = slide up
\ = slide down
/\ = whammy bar ‘dive’ 
* = palm mute
~ = let note(s) ring



Important: The song above is NOT stored on the Chordie server. The original song is hosted at www.xguitar.com. Chordie works as a search engine and provides on-the-fly formatting. Chordie does not index songs against artists/composers will. To remove this song please click here.

This song is displayed as text-only. Transposing and tuning is only available for chordpro-songs.

Login - add to songbook

Rating click stars to rate

Layout
Accuracy

SHARE PAGE  



You need to log in to post comments