Chordie logo

Knife Going In   Tegan and Sara



Title: Knife Going In
Artist: Tegan and Sara

I know the tuning is complicated, but it's correct.

TUNING:
D (tune down)
G (tune down)
Eb (tune down)
Bb (tune down)
F (tune down)
C (tune down)

*Listen to song for the rythm*

INTRO:
D||-0--0-0--0-0-0-|
G||-0--0-0--3-3-3-|
Eb|-0--0-0--2-2-2-|
Bb|-2--2-2--0-0-0-| x4
F||-2--2-2--------|
C||---------------|

VERSE 1:
(Let chords ring)
D||--0---0--|
G||--0---0--|
Eb|--0---0--|
Bb|--2---9--| x2
F||--2--10--|
C||---------|

CHORUS:
D||-0--0-0--0-0-0-|
G||-0--0-0--3-3-3-|
Eb|-0--0-0--2-2-2-|
Bb|-2--2-2--0-0-0-| x8
F||-2--2-2--------|
C||---------------|

POST-CHORUS:
D||-0--0-0-0--0---0--0--0--0--0--0-|
G||-0--0-0-0--0---0--0--0--0--0--0-|
Eb|-0--0-0-0--0---0--0--0--0--0--0-|
Bb|-2--2-2-4--9---9--9--9--9--9--9-| x4
F||-2--2-2-5-10--10-10-10-10-10-10-|
C||--------------------------------|

VERSE 2:
(Let chords ring)
D||--0---0--|
G||--0---0--|
Eb|--0---0--|
Bb|--2---9--| x1
F||--2--10--|
C||---------|

D||-0--0-0-0--0---0--0--0--0--0--0-|
G||-0--0-0-0--0---0--0--0--0--0--0-|
Eb|-0--0-0-0--0---0--0--0--0--0--0-|
Bb|-2--2-2-4--9---9--9--9--9--9--9-| x2
F||-2--2-2-5-10--10-10-10-10-10-10-|
C||--------------------------------|



ORDER OF PARTS:
1. Intro
2. Verse 1

3. Chorus
4. Post-Chorus
5. Verse 2


Important: The song above is NOT stored on the Chordie server. The original song is hosted at www.guitaretab.com. Chordie works as a search engine and provides on-the-fly formatting. Chordie does not index songs against artists/composers will. To remove this song please click here.

This song is displayed as text-only. Transposing and tuning is only available for chordpro-songs.

Login - add to songbook

Rating click stars to rate

Layout
Accuracy

SHARE PAGE  

You need to log in to post comments