Chordie logo

The First   Tegan and Sara



Capo: 7th Fret

Intro:

E---------------------------------|
B-----0h1~------------0h1~--------|
G----------0---------------0------|
D--2~----------0-0h2~---------0---|
A---------------------------------|
E---------------------------------|


Verse:
    Am   G
E---0----3---|
B---1----0---|
G---2----0---|
D---2----0---|
A---0----2---|
E---0----3---|

Chorus:

(We decide to go out walking)

    Am   C    G
E---0----0----3---|
B---1----1----0---|
G---2----0----0---|
D---2----2----0---|
A---0----3----2---|
E---0----0----3---|

Second guitar, no capo:

E---x----X-----2---|
B---x----X-----3---|
G---9----12----2---|
D---9----12----0---|
A---7----10----0---|
E---X----X-----X---|

Bridge:

(On the edge of town...)

E----------------|--------------------------|
B----------------|--------1----------0------|
G----------------|-----------2----------0---|
D----------------|-----2--------------------| (4X)
A-------------2--|--0--------------2--------|


Important: The song above is NOT stored on the Chordie server. The original song is hosted at www.guitaretab.com. Chordie works as a search engine and provides on-the-fly formatting. Chordie does not index songs against artists/composers will. To remove this song please click here.

This song is displayed as text-only. Transposing and tuning is only available for chordpro-songs.

Login - add to songbook

Rating click stars to rate

Layout
Accuracy

SHARE PAGE  



You need to log in to post comments