Chordie logo

One Second   Tegan and Sara



TITLE: One Second
ARTIST: Tegan and Sara
ALBUM: I'll Take the Blame EP

Tuning: standard

*Note* - The actual recording of the song has no guitar part, so this tab is for the 
that Tegan plays for the live version of this song. Here is a link to a live performance:
http://www.youtube.com/watch?v=JZ4rXMJuM8M

VERSE (palm-muted):
"I cram it in..."
e|------|------|
B|------|------|
G|--10--|---5--|
D|--10--|---5--|
A|---8--|---3--|
E|------|------|

PRE-CHORUS:
"Oh, oh, oh, oh, where do you go..."
e|------|------|
B|------|------|
G|--10--|---5--|
D|--10--|---5--|
A|---8--|---3--|
E|------|------|

CHORUS:
"And when I cry, I do it all alone..."
e|------|------|
B|------|------|
G|--10--|---5--|
D|--10--|---5--|
A|---8--|---3--|
E|------|------|

PRE-CHORUS(II):
e|-----|-----|-----|-----|
B|-----|-----|-----|-----|
G|--7--|--3--|--5--|--5--|
D|--7--|--3--|--5--|--5--|
A|--5--|--1--|--3--|--3--|
E|-----|-----|-----|-----|

e|------|------|
B|------|------|
G|--10--|---5--|
D|--10--|---5--|
A|---8--|---3--|
E|------|------|

ORDER OF PARTS:
Verse-------------|x8
Pre-Chorus--------|x4
Chorus------------|x4
Verse-------------|x8
Pre-Chorus--------|x4
Pre-Chorus(II)---x2


Important: The song above is NOT stored on the Chordie server. The original song is hosted at www.guitaretab.com. Chordie works as a search engine and provides on-the-fly formatting. Chordie does not index songs against artists/composers will. To remove this song please click here.

This song is displayed as text-only. Transposing and tuning is only available for chordpro-songs.

Login - add to songbook

Rating click stars to rate

Layout
Accuracy

SHARE PAGE  

You need to log in to post comments