Chordie logo

Head Over Heels   Tears For Fears



For this intro you want to have your 5-way selector switch facing towards 
you when your playing for a more mellow kind of sound for the intro. Also, 
try to sustain the notes for it to sound better.

NOTE: THESE ARE JUST THE GUITAR PARTS OF THE SONG, THE VERSE DOES NOT HAVE GUITAR IN IT!!!!!!!!!!!

INTRO:

|---------------/17-15\-------------|
|------/10--8-----------------------|
|/9--7------------------------------|
|-----------------------------------|
|-----------------------------------|
|-----------------------------------|


|8-7h8p7------------8-7h8p7---------|
|--------8-/10--------------8/10----|
|--------------9------------------9-|
|-----------------------------------|
|-----------------------------------|
|-----------------------------------|

|---------------/17-15\-------------|
|------/10--8-----------------------|
|/9--7------------------------------|
|-----------------------------------|
|-----------------------------------|
|-----------------------------------|

|---|
|---|
|-2-|
|-2-|
|-0-|
|---|

CHORUS:

|5-------------------------7------------------|
|5-------------------------7------------------|
|7-------------------------9------------------|
|7-------------------------9------------------|
|5-------------------------7------------------|
|---------------------------------------------|
 Something Happens and i'm head over heals

|---------------------------------------------|
|--10--8--7--8---7----------------------------|
|------------------9--------------------------|
|--------------------9------------------------|
|---------------------------------------------|
|---------------------------------------------|
 I never...

|---------------------------------------------|
|--10--8--7--8---7----------------------------|
|------------------9--------------------------|
|--------------------9------------------------|
|---------------------------------------------|
|---------------------------------------------|
 Something...

|-8--|
|-8--|
|-10-|
|-10-|
|-8--|
|----|
Don't...

Then play the intro for that breakdown kinda part.


/ = slide up
\ = slide down
h = hammer on
p = pull-off



Important: The song above is NOT stored on the Chordie server. The original song is hosted at www.guitaretab.com. Chordie works as a search engine and provides on-the-fly formatting. Chordie does not index songs against artists/composers will. To remove this song please click here.

This song is displayed as text-only. Transposing and tuning is only available for chordpro-songs.

Login - add to songbook

Rating click stars to rate

Layout
Accuracy

SHARE PAGE  



You need to log in to post comments