Chordie logo

Taking Back Control   Sparta



The solo im not sure how to do yet, im getting there, but i do know the intro, and the 
Ill do the intro, then the chorus. Comments, put downs?? Send them to: acdc.lover@hotmail 
com
Guitar 1 Intro

e|--------------------|Play
B|--------------------|This Three(3)
G|--------------------|Times
D|--------------------|Then Play
A|5-7-8---------------|First Note
E|------8-6-6---------|Let It Ring

Guitar 2 Intro

e|----------------------------|----------------------------|
B|-6---10---6--10---5--5--5--5|-6---10---6---10--5--5--5--6|Let This Ring.
G|7---7---7--7-----7--7--7--7-|7--7----7---7----7--7--7--7-|
D|----------------------------|----------------------------|
A|----------------------------|----------------------------|
E|----------------------------|----------------------------|

Now For The Chorus!
Guitar 1 Chorus

e|-----------------------------------------------------------------|
B|-----------------------------------------------------------------|
G|-----------------------------------------------------------------|
D|0-0-0-0--2-2-2-2--3-3-3-3--7-7-7-7--5-5-5-5-5-5-5-5-5-5-5-5-5-5-5|
A|0-0-0-0--2-2-2-2--3-3-3-3--7-7-7-7--5-5-5-5-5-5-5-5-5-5-5-5-5-5-5|
E|0-0-0-0--2-2-2-2--3-3-3-3--7-7-7-7--5-5-5-5-5-5-5-5-5-5-5-5-5-5-5|
    (x4)     (x4)     (x4)     (x4)        (x15)

Guitar 2 Chorus. ( There Are 2 Parts)
(Part 1)
e|----------------|Play
B|15x5------17x8--|This
G|-----15x9-------|Two(2)
D|----------------|More
A|----------------|Times
E|----------------|
(Part 2)
e|-----------------------------------------------------|Play
B|------15----------15----------15/17x8-15x15------17--|This
G|14-15----12-14-15----12-14-15---------------15x9-----|Eight(8)
D|-----------------------------------------------------|More
A|-----------------------------------------------------|Times
E|-----------------------------------------------------|

THE LEGEND!
x=mute note
/=Slide

There are probably mistakes, but this is what i got from listening to the song 1000 


Important: The song above is NOT stored on the Chordie server. The original song is hosted at www.guitaretab.com. Chordie works as a search engine and provides on-the-fly formatting. Chordie does not index songs against artists/composers will. To remove this song please click here.

This song is displayed as text-only. Transposing and tuning is only available for chordpro-songs.

Login - add to songbook

Rating click stars to rate

Layout
Accuracy

SHARE PAGE  



You need to log in to post comments