Chordie logo

Prison Song   Graham Nash



I got this tab from the Zug Izland fan site, "zuggalos.com".

Prison Song

Opening Riff
e-------------|
B-------------|
G-------------|
D-------------|
A-0-2-3-------|
E-------------|

Verse Chords
e-4---|--2---|
B-5---|--3---|
G-6---|--4---|
D-6---|--4---|
A-4---|--2---|
E-----|------|
Listen to the song and get a feel for the rhythm of these chords. Use different up and 
strokes, and also pluck out individual notes in the chord. Sometimes going from the B 
to C# (x24432) to (x46654) you play the opening riff in between them.

Chorus Chords
e-4-|------|-2-|----|
B-5-|------|-3-|----|
G-6-|------|-4-|-2--|
D-6-|-9/8--|-4-|-2--|
A-4-|-7/6--|-2-|-0--|
E---|------|---|----|

Bridge "I'm not here tryin to make amendsÂ…"
e-4-|-2-|----|
B-5-|-3-|-2--|
G-6-|-4-|-2--|
D-6-|-4-|-2--|
A-4-|-2-|-0--|
E---|---|----|

Mike P might actually use different chord formations, or even use a capo, but I don't 
one of those and these are still the right notes, so it all works out.




Important: The song above is NOT stored on the Chordie server. The original song is hosted at www.guitaretab.com. Chordie works as a search engine and provides on-the-fly formatting. Chordie does not index songs against artists/composers will. To remove this song please click here.

This song is displayed as text-only. Transposing and tuning is only available for chordpro-songs.

Login - add to songbook

Rating click stars to rate

Layout
Accuracy

SHARE PAGE  

You need to log in to post comments