Chordie logo
content loaded from cache

Cowboy Rides Away  George Strait

e|-------------------------------------------------3-|


B|-------------------------------------------------0-|


G|-4-0-2---0-------------2---0-----------------0---0-|


D|-------4---2-4-0---------4---2-4-0-2-0-----------0-|


A|-----------------3---------------------2h3-2-----2-|


E|-------------------------------------------------3-|


[G]I knew the stakes were high right from the s[C]tart

[D]When she dealt the c[D7]ards I bet my h[G]eart

Now I just found a game that I can't p[C]lay

And t[D]his is where the cowboy r[D7]ides a[G]way

And my heart is sinking like the setting s[C]un

[D]Setting on the things I w[D7]ish I'd d[G]one

It's time to say goodbye to yesterd[C]ay

And t[D]his is where the co[D7]wboy rides a[G]way

Interlude:
e|-------------------------------------------------3-|
B|-------------------------------------------------0-|
G|-4-0-2---0-------------2---0-----------------0---0-|
D|-------4---2-4-0---------4---2-4-0-2-0-----------0-|
A|-----------------3---------------------2h3-2-----2-|
E|-------------------------------------------------3-|


[G]We've been in and out of love and in be[C]tween

And n[D]ow we play the f[D7]inal showdown s[G]cene

As the credits roll a sad song starts to p[C]lay

And t[D]his is where the cowboy r[D7]ides a[G]way

And my heart is sinking like the setting s[C]un

[D]Setting on the things I w[D7]ish I'd d[G]one

Oh, the last goodbye's the hardest one to s[C]ay

And t[D]his is where the co[D7]wboy rides a[G]way

Oh, the last goodbye's the hardest one to s[C]ay

[D]This is where the co[D7]wboy rides a[G]way

Outro:
E|--------------------3-|
B|--------------------0-|
G|-4-0-2---0----------0-|
D|-------4---2-4-0----0-|
A|--------------------2-|
E|--------------------3-|				


Important: The song above is NOT stored on the Chordie server. The original song is hosted at www.guitaretab.com. Chordie works as a search engine and provides on-the-fly formatting. Chordie does not index songs against artists/composers will. To remove this song please click here.

C D D7 G
variations - click chord images

Transpose chords

Tuning

Rating click stars to rate

Layout
Accuracy

SHARE PAGE  

You need to log in to post comments