Chordie logo

A Better Place   Corey Smith



tabbed by:Chito Borja
email: maurel_borja@yahoo.com
legend:
     ` - palm mute
     ~ - let ring
     h - hammer down
     p - pull-off

BOY ELROY - A Better Place


INTRO:
guitar 2
e|----------------------------------------------------|
b|----------------------------------------10~-11~-----|
g|-----------9h11~-11-11p9-13p9~--------9-------------|
d|-9-9-9h11----------------------9-9h11---------------|
a|----------------------------------------------------|
E|----------------------------------------------------|

e|----------------------------------------------------|
b|----------------------------------------------------|
g|-----------9h11~-11-11p9-13p9~--------9-11~-9~------|
d|-9-9-9h11----------------------9-9h11---------------|
a|----------------------------------------------------|
E|----------------------------------------------------|

INTRO:
guitar 1
e|----------------------------------------------------|
b|----------------------------------------------------|
g|-9-9-9-9--4-4-4-4--6-6-6-6--2~-4~-------------------|
d|-9-9-9-9--4-4-4-4--6-6-6-6--2~-4~-------------------|
a|-7-7-7-7--2-2-2-2--4-4-4-4--0~-2~-------------------|
E|-0-0-0-0--------------------------------------------|
(x2)


guitar 2
e|----------------------------------------------------|
b|----------------------------------------10~-11~-----|
g|-----------9h11~-11-11p9-13p9~--------9-------------|
d|-9-9-9h11----------------------9-9h11---------------|
a|----------------------------------------------------|
E|----------------------------------------------------|

e|----------------------------------------------------|
b|----------------------------------------------------|
g|-----------9h11~-11-11p9-13p9~--------9-11~-9~------|
d|-9-9-9h11----------------------9-9h11---------------|
a|----------------------------------------------------|
E|----------------------------------------------------|


VERSE (and INTERLUDE):
(E, B, C#, B with upward strumming or this way...)
guitar 1

e|----------------------------------------------------|
b|----------------------------------------------------|
g|-9--9-9--9---8--8-8--8-------------------8--8-8--8--|
d|-9--9-9--9---9--9-9--9---11--11-11--11---9--9-9--9--|
a|-7--7-7--7---9--9-9--9---11--11-11--11---9--9-9--9--|
E|--------------------------9---9--9---9--------------|
(x2)

guitar 2
e|----------------------------------------------------|
b|----------------------------------------------------|
g|-9~~~~~~~~~~~~~~~~~~~~~~~~~~~~~~~~~~~~~~~~~~~~~~~~--|
d|-x~~~~~~~~~~~~~~~~~~~~~~~~~~~~~~~~~~~~~~~~~~~~~~~~--|
a|-7~~~~~~~~~~~~~~~~~~~~~~~~~~~~~~~~~~~~~~~~~~~~~~~~--|
E|----------------------------------------------------|
(x2)


PRE-CHORUS(and BRIDGE):
guitar 1 and 2
e|----------------------------------------------------|
b|----------------------------------------------------|
g|----------------------------------------------------|
d|-6--7--7-7-7-7-7-7-7-7--11--9--9-9-9-9-9-9-9-9------|
a|-6--7--7-7-7-7-7-7-7-7--11--9--9-9-9-9-9-9-9-9------|
E|-4--5--5-5-5-5-5-5-5-5---9--7--7-7-7-7-7-7-7-7------|
         ` ` ` ` ` ` ` `         ` ` ` ` ` ` ` `

OUTRO-CHORUS:
guitar 1
same as chorus


guitar 2 (bass down intro riff or like this...)

e|----------------------------------------------------|
b|----------------------------------------------------|
g|----------------------------------------------------|
d|------------------------------------7~-6~-----------|
a|---------7h9~--9-9p7-11p7~--------7-----------------|
E|-7-7-7h9--------------------7-7h9-------------------|

e|----------------------------------------------------|
b|----------------------------------------------------|
g|----------------------------------------------------|
d|----------------------------------------------------|
a|---------7h9~--9-9p7-11p7~--------7-9~-7~-----------|
E|-7-7-7h9--------------------7-7h9-------------------|

end!

just listen the song first, and you'll get the hang of it...
the song is melodic, and will easily get into your ear nerves!

support indie bands !!!




Important: The song above is NOT stored on the Chordie server. The original song is hosted at www.guitaretab.com. Chordie works as a search engine and provides on-the-fly formatting. Chordie does not index songs against artists/composers will. To remove this song please click here.

This song is displayed as text-only. Transposing and tuning is only available for chordpro-songs.

Login - add to songbook

Rating click stars to rate

Layout
Accuracy

SHARE PAGE  

You need to log in to post comments