Chordie logo

The Future     Leonard Cohen



This is The Future by newton faulkner hope u like it please rate nd comment thnx *SORRY 
IVE SENT AN UNFINISHED VERSION OF THIS!!!!!!
    Robin S (3230)

CAPO 7TH FRET

Intro
E----------------------|
B-----1---3------------|    This chord progression is used right up until the
G-----0---0-----0---0--|    end of the piano solo....
D-----2---4-----4---4--|
A--0----0-------2---2--|
E-------------0---0----|


Bridge bit (The sunrise hurts my eyes....)
cos im not good at writing the rhythm i can only do the chors so try and listen out for 
it the song....

E--3-----3-----3----------------------------------------------------------..
B--3-----3-----3----------------------------------------------------------..
G--0-----0-----0----------------------------------------------------------..
D--0-----0-----2   OR those with a big stretch there is an F# (7th fret).-..
A--2-----0-----2----------------------------------------------------------..   up there sumwhere
E--3-----2-----0----------------------------------------------------------..


E--7-----7-----7..
B--3-----0-----0..
G--4-----0-----0..  play either of these 4 times
D--3-----0-----0..
A--5-----0-----2..
E--3-----2-----0..

Then (I (and thats a long i) can't ....)
                            ("Left") change when he says that
E--3-----3-----3-----3---3----0..
B--3-----3-----3-----3---3----1..
G--0-----0-----0-----0---0----2..
D--0-----2-----0-----2---2----2..
A--2-----2-----2-----2---3----0..
E--3-----0-----3-----0---0----x..

after a minor go back to this except with eminor to start off with as uve just played a minor

E----------------------|
B-----1---3------------|
G-----0---0-----0---0--|
D-----2---4-----4---4--|
A--0----0-------2---2--|
E-------------0---0----|

End on E minor.


Unfortunately i cant find the lyrics and i cant hear exactly what he's saying but 
someone will do some nd then ill add those on.


Important: The song above is NOT stored on the Chordie server. The original song is hosted at www.guitaretab.com. Chordie works as a search engine and provides on-the-fly formatting. Chordie does not index songs against artists/composers will. To remove this song please click here.

This song is displayed as text-only. Transposing and tuning is only available for chordpro-songs.

Rating click stars to rate

Layout
Accuracy

SHARE PAGE  

You need to log in to post comments