Chordie logo

Celebrity   Brad Paisley



----------------------------------------------------------|
----------------------------------------------------------|
----------------------------------------------------------|
---------0h2~-2-----2h3--2--------------------------------|
----------------3-----------3b/5b--3v---------------------|
----3-----------------------------------------------------|

-----------------------------------------------------------|
-----------------------------------------------------------|
-----------------------------------------------------------|
-----------0h2~-2-----2h3--2-------------------------------|
------0-3----------3-----------3b/5b--3v------------0-3-3\-|


Important: The song above is NOT stored on the Chordie server. The original song is hosted at www.guitaretab.com. Chordie works as a search engine and provides on-the-fly formatting. Chordie does not index songs against artists/composers will. To remove this song please click here.

This song is displayed as text-only. Transposing and tuning is only available for chordpro-songs.

Login - add to songbook

Rating click stars to rate

Layout
Accuracy

SHARE PAGE  



You need to log in to post comments