Chordie logo

A Farewell To A Friendship  A Change Of Pace

|--0-----0-----------0-----x------|


|--3---2---2-----------2---3------|


|--2-2-------2---2-------2-2------|


|--0-----------0---0-------0------|


|--------------------------x------|


|--------------------------3------|x4










|-------0-----------0-----------0-----------0-----|


|-----2---2-----------2-----------2-----------2---|


|---2-------2---2-------2---2-------2---2-------2-|


|-0---------------------------0-----------0-------|


|-------------0---0-------------------------------|


|-------------------------3-----------3-----------|x2





Now [Dsus2]gasp for [Aadd11]air,

There's [Dmaj7]nothing [Dsus4]left,

[Dsus2]For me to [Aadd11]take from [Dmaj7]you    [Dsus4]


Verse 2

|--0-----0-----------0-----x------|
|--3---2---2-----------2---3------|
|--2-2-------2---2-------2-2------|
|--0-----------0---0-------0------|
|--------------------------x------|
|--------------------------3------|x4

I guess it's only right to give someone what they need
Even if it's nothing they ever wanted in the first place
I've seen with my own to eyes the hurt and pain
That love causes that's why I won't let you go

Down that road to emotional over[Bm]dose

If I [Dsus4]had her again [Dsus2]everything would be [Asus]alrig[A]ht

But [Bm]nothing's alright and [Dsus4]nothing's okay

When you [Dsus2]live in a [Asus]memor[A]y


Chorus
Because I'm [Dsus2]lost for [Aadd11]words with [Dmaj7]one last [Dsus4]breath

For [Dsus2]me to [Aadd11]take from [Dmaj7]you    [Dsus4]

Now [Dsus2]gasp for [Aadd11]air,

There's [Dmaj7]nothing [Dsus4]left,

[Dsus2]For me to [Aadd11]take from [Dmaj7]you    [Dsus4]


Bridge

[Bm]Just a breakdown [Dsus2]of the heart

A [Dsus4]loss for words that won't [Asus]mean a [A]thing

The [Bm]tragic ending a [Dsus2]farewell to a [Dsus4]friendship

That meant [Asus]nothing at [A]all

[Bm]You let her in, [Dsus2]you let her win

[Dsus4]Is there [Asus]anything [A]else

To [Bm]break or bend a [Dsus2]bond as strong as [Dsus4]ours

Asus A V-come in with the tab below
Now hollow all throughout

|-------0------------0-----------0-----------0-----|
|---------2------------2-----------2-----------2---|
|---2-------2----2-------2---2-------2---2-------2-|
|-0---0--------------------------------------------|
|--------------0---0-------------------0---0-------|
|--------------------------3---3-------------------|x2

(all throughout)

Chorus

Because I'm [Dsus2]lost for [Aadd11]words with [Dmaj7]one last [Dsus4]breath

For [Dsus2]me to [Aadd11]take from [Dmaj7]you    [Dsus4]

Now [Dsus2]gasp for [Aadd11]air,

There's [Dmaj7]nothing [Dsus4]left,

[Dsus2]For me to [Aadd11]take from [Dmaj7]you    [Dsus4]

end on Dsus2.

Important: The song above is NOT stored on the Chordie server. The original song is hosted at www.guitaretab.com. Chordie works as a search engine and provides on-the-fly formatting. Chordie does not index songs against artists/composers will. To remove this song please click here.

A Aadd11 Asus Bm Dmaj7 Dsus2 Dsus4
variations - click chord images

Login - add to songbook

Transpose chords

Tuning

Rating click stars to rate

Layout
Accuracy

SHARE PAGE  



You need to log in to post comments