Chordie logo

The Chair 2  George Strait

               e---------------------------------


               b----10---9--------------------


               g---------------9----------------


               D------------------9---11------


               A---------------------------------


               E---------------------------------



[A]Well excuse me, but I think you've got my chair,           [Bm]
[Bm]No [E]that one's not taken, I don't mind if you sit here,         [A]
[A]I'll be gl[D]ad to sha[E]re.
[E]Yea it's us[A]ually,
[A]Packed here on Friday nights,   [Bm]
O[E]h if you don't mind could I talk you out of a light?
[E]Well [A]thank you, could I drink you a buy?       [Bm]
[Bm]Oh [E]listen to me, what I mean i[Bm]s can I buy you a drink?        [E]
[E]Anyt[A]hing you please.       [D]   [E]
O[Bm]h you're welcome, well I don't think I caught your name,
[Bm]Are you wa[D]iting for some[E]one to meet you [D]here?
[E]Well that makes two of [Bm]us,         [E]
[E]Glad you cam[A]e.
[A]       [Bm]                             [E]No I don't know the name of the band but they're good,
[A]Aren't they, would you like to dance?
Y[A]ea I like this song too, it reminds me of you and me baby
[A]Do you think there's a chance?
[A]That la[Bm]ter on, I could drive[E] you home?
[E]No I[A] don't mind at all, [D]
[D]Oh I like you too[E] and to tell yo[D]u the truth    [E]
[E]That wa[Bm]sn't my chai[E]r after all.  [A]
[A]Oh I[D] like you to[E]o and to tell y[D]ou the truth    [E]
[E]That wa[Bm]sn't my chai[E]r after all.   [A]


****Closing Riff:



e---------------------------------------------------------------------
---------
b--12--14--10--15--12--14----10--9------------------------------------

[--]                                                                    
g----------------------------------------------9----------------------
----------
D-------------------------------------------------9---11--------------
------------
A---------------------------------------------------------------------
---------
E---------------------------------------------------------------------
---------



The first half of the closing riff is the same riff used for the fill-
ins.


Questions or Comments?
Eric Huffman
Str8Fan@prodigy.com


Important: The song above is NOT stored on the Chordie server. The original song is hosted at www.allcountrytabs.com. Chordie works as a search engine and provides on-the-fly formatting. Chordie does not index songs against artists/composers will. To remove this song please click here.

A Bm D E
variations - click chord images

Login - add to songbook

Transpose chords

Tuning

Rating click stars to rate

Layout
Accuracy

SHARE PAGE  

You need to log in to post comments