Chordie logo

my own prison   Creed








Date: Sat, 20 Dec 1997 21:59:46 EST
From: RacerX1947 
Subject: TAB: Creed- My Own Prison


Creed - My Own Prison
by Scott Stapp and Mark Tremonti
Transcribed by Jeff Hayes (Fro99@juno.com) and
Mike Steedle (RacerX1947@aol.com)

Dropped D tuning

Intro - Verse - Prechorus
  D          A#          F
e----------------------------------------------|
b------------------------------6---------------|
g-------2----------0--------5--5---------------|
d----0--0------0h3---3------3--3--3--------(0)-|
a-0--0--0--0h1---------0-3--3--3--3h5-3--------|
d-0----------------------3--------------5-3----|
Guitar 2 (left channel)
e----------------------------------------------|
b----------------------------------------------|
g----------------------------------------------|
d--------------3-------------------------------|
a----------0-1-----1-1-0-----------------------|
d----------------------------------------------|

Chorus - chords
      F     E7   D#sus2 D  E7 F/D
e-----------------1--------------|
b-----6-----5-----4-----3--5--6--|
g-----5-----4-----3-----2--4--5--|
d-----3-----0-----1-----0--0--0--|
a-----3-----X-----1-----0--------|
d-----3-----2-----1-----0--------|

Third Verse
Guitar 1
   F       C      D       A#
Guitar 2 (with slow phase shift)
e--------------------------------|
b----------6--6-----------6--6---|
g--------------------------------|
d--7~--7h8------8-7~--7h8-----8--|
a--------------------------------|
d--------------------------------|

A court is in session, a verdict is in
No appeal on the docket today
Just my own sin
The walls are cold and pale
The cage made of steel
Screams fill the room
Alone I drop and kneel
Silence now the sound
My breath the only motion around
Demons cluttering around
My face showing no emotion
Shackled by my sentence
Expecting no return
Here there is no penence
My skin begins to burn

So I held my head up high
Hiding hate that burns in side
Which only fuels their selfish pride
We're all held captive
Out from the sun
A sun that shines on only some
We the meek are all in one

I hear a thunder in the distance
See a vision of a cross
I feel the pain that was given
On that sad day of loss
A lion roars in the darkness
Only he holds the key
A light to free me from my burden

And grant me life eternally

Should have been dead
On a sunday morning
Banging my head
No time for mourning
Ain't got no time

I cry out to God
Seeking only his decision
Gabriel stands and confirms
I've created my own prison








Important: The song above is NOT stored on the Chordie server. The original song is hosted at tabfu.thudspace.net. Chordie works as a search engine and provides on-the-fly formatting. Chordie does not index songs against artists/composers will. To remove this song please click here.

This song is displayed as text-only. Transposing and tuning is only available for chordpro-songs.

Login - add to songbook

Rating click stars to rate

Layout
Accuracy

SHARE PAGE  



You need to log in to post comments